[ Новые сообщения · Участники · Правила форума · Поиск · RSS ]
Страница 2 из 5«12345»
Модератор форума: Оля-ля 
Форум » One Republic » Творчество » Нотная тетрадь (Тема для музицирующих и мечтающих начать.)
Нотная тетрадь
Оля-ляДата: Суббота, 2009-10-03, 7:24 PM | Сообщение # 16
Легенда
Группа: Модераторы
Сообщений: 9857
Статус: Offline
Награды:
Респект Модератору Монстр общения Гигант общения Респект за общительность Респект за Мега общительность Фанату 1R За верность форуму
Продолжаем уроки.

All the Right Moves



Хронически влюблена.
 
SmartYДата: Суббота, 2009-10-03, 7:42 PM | Сообщение # 17
Любитель
Группа: Пользователи
Сообщений: 56
Статус: Offline
Награды:
Оля-ля, Спасибо Большое!!! :) :) :) :) :)
 
ChirzzzДата: Пятница, 2009-11-20, 4:01 PM | Сообщение # 18
Тень
Группа: Пользователи
Сообщений: 12
Статус: Offline
Награды:
Уважаемый Оля-ля, а где вы нашли ноты к Come Home????
очень нужно


Как сердцу высказать себя?
Другому как понять тебя?
Поймет ли он, чем ты живешь?
Мысль изреченная - есть ложь...
 
Оля-ляДата: Пятница, 2009-11-20, 8:33 PM | Сообщение # 19
Легенда
Группа: Модераторы
Сообщений: 9857
Статус: Offline
Награды:
Респект Модератору Монстр общения Гигант общения Респект за общительность Респект за Мега общительность Фанату 1R За верность форуму
Chirzzz, спешу сообщить, что я являюсь представительницей женского пола. ;)
А где ноты брала, боюсь не вспомню. Набрела где-то. Если случится вспомнить или наткнуться обязательно дам знать.


Хронически влюблена.
 
ChirzzzДата: Пятница, 2009-11-20, 8:41 PM | Сообщение # 20
Тень
Группа: Пользователи
Сообщений: 12
Статус: Offline
Награды:
это плохо
а то вы выложили первую страницу и все...(((((

Добавлено (2009-11-20, 8:41 Pm)
---------------------------------------------
а за "уважаемого" извините


Как сердцу высказать себя?
Другому как понять тебя?
Поймет ли он, чем ты живешь?
Мысль изреченная - есть ложь...
 
NellyДата: Пятница, 2009-11-20, 10:41 PM | Сообщение # 21
Новичок
Группа: Пользователи
Сообщений: 37
Статус: Offline
Награды:
да, я сегодня уже попыталась сыграть "All The Right Moves" и только на первый припев хватило.. Но все равно спасибо!))
 
ChirzzzДата: Пятница, 2009-11-20, 11:09 PM | Сообщение # 22
Тень
Группа: Пользователи
Сообщений: 12
Статус: Offline
Награды:
Quote (Nelly)
только на первый припев хватило..

а ты как играешь? хорошо?


Как сердцу высказать себя?
Другому как понять тебя?
Поймет ли он, чем ты живешь?
Мысль изреченная - есть ложь...
 
Оля-ляДата: Среда, 2009-11-25, 3:08 PM | Сообщение # 23
Легенда
Группа: Модераторы
Сообщений: 9857
Статус: Offline
Награды:
Респект Модератору Монстр общения Гигант общения Респект за общительность Респект за Мега общительность Фанату 1R За верность форуму
Chirzzz, здесь можно скачать многое, но за деньги.
Digital Downloads
Можно ещё купить официальное издание Там же представлено.


Хронически влюблена.
 
ChirzzzДата: Среда, 2009-11-25, 3:17 PM | Сообщение # 24
Тень
Группа: Пользователи
Сообщений: 12
Статус: Offline
Награды:
Спасибо большое, Оля-ля, но этот вариант не подходит для меня

Как сердцу высказать себя?
Другому как понять тебя?
Поймет ли он, чем ты живешь?
Мысль изреченная - есть ложь...
 
FTorres9Дата: Вторник, 2009-12-22, 3:40 PM | Сообщение # 25
Тень
Группа: Пользователи
Сообщений: 16
Статус: Offline
Награды:
All The Right Moves
Version: 1 Type: Tab
Highlighted Show chords diagrams

Intro/Verse/Chorus/ guitar and keys
Am G C F
e|-----3-------1-|
B|-1---3---1---1-|
G|-2---0---0---2-|
D|-2---0---2---3-|
A|-0---2---3---3-|
E|-----3-------1-|

Perfect for one guitar/acoustic version

Let ring for Intro/Chorus, play each 8 times for Chorus

or you can play it this way
e|------------------------------1-|
B|-1-------1-------1-------1----1-|
G|-2---0---0---2---2---0---0----2-|
D|-2---0---2---3---2---0 ---2----3-|
A|-0---2---3---3---0---2---3------|
E|-----3-------1-------3----------|

Cello in verse 1 x2
e|------------------------0---------|
B|-------1------------------------1-|
G|----------------0-----------------|
D|----2------------ -----2-----------|
A|--0----------2------3---------3---|
E|-----------3----------------1-----|

Cello in verse 2
e|-----------------------------|
B|-10---8----------------------|
G|----------7-9-----10-9--7--5-|
D|---------------7-------------|
A |-----------------------------|
E|-----------------------------|

2.12
Guitar 1
Solo (x2)
e|-----------12------------------------------|
B|-------13----------------------------------|
G|-12-14----------12b~\\\9---7-10-10-1 0-\9 \7-|
D|-------------------------------------------|
A|-------------------------------------------|
E|------------------------------------ -------|

Guitar 2/Keys plays the first main riff x2 or the second main riff once

Last Chorus 3.16
Lead Guitar
x2
e|----------|----------12----------------------------------------12-----------------------------|
B|------13b-|------13-------- -------- -------------------------13--------------------------------|
G|-9/10-----|-9/10---------12b~\\\9---7-10-10-10-\9\7---12-14--------12b~\\\9---7-10-10-10-\9\7-|
D|----------|-------------------------------------------- ---------------------------------------|
A|----------|-----------------------------------------------------------------------------------|
E |----------|-----------------------------------------------------------------------------------|

Outro x2
e|-----------12------------------------------|
B|-------13----------------------------------|
G|-12-14----------12b~\\\9---7-10-10-10- \9\7-|
D|-------------------------------------------|
A|-------------------------------------------|
E|---------------------------------- ---------|

Сообщение отредактировал Оля-ля - Суббота, 2009-12-26, 3:17 AM
 
Оля-ляДата: Вторник, 2009-12-22, 6:37 PM | Сообщение # 26
Легенда
Группа: Модераторы
Сообщений: 9857
Статус: Offline
Награды:
Респект Модератору Монстр общения Гигант общения Респект за общительность Респект за Мега общительность Фанату 1R За верность форуму
FTorres9, добро пожаловать на форум. 1_007 За приход с не пустыми руками отдельный плюсик. ;)

Хронически влюблена.
 
FTorres9Дата: Суббота, 2009-12-26, 3:45 PM | Сообщение # 27
Тень
Группа: Пользователи
Сообщений: 16
Статус: Offline
Награды:
Dreaming Out Loud
Chords:
Dm: xx0765
Bbmaj7: 6x0765
G: 355433
F: 133211
Fadd9/A:x03011
Bbsus2: x13311
C: x32010
D: xx0232
C6: 8 x 10 9 10 0
A7: 575685

INTRO:
Dm Bbmaj7 Dm Bbmaj7 Dm Bbmaj7 G
e|------5-------5-------5---------5------5---------5---------3-------
B|------6-------6-------6---------6------6---------6---------3----- --
G|------7-------7-------7---------7------7---------7---------4------- 2x
D|---0--------------0-----------------0----------------------5-------
A|-----------------------------------------------------------5--- ----
E|----------6----------------6----------------6--------------3-------

Dm Bbmaj7
Well hello sir, we look for mondays,
Dm Bbmaj7
Confident we'll get there someday,
Dm Bbmaj7 G
Pushing all the papers to a wealthy man,
Dm Bbmaj7 Dm
Might I say, a beautiful tie you wear,
Bbmaj7 Dm Bbmaj7 G
and how do you find such lovely polka dots and stripes these days?

[bridge]
F Fadd9/A
Break all my thoughts hit the floor,
Bbsus2
like I'm makin the score,
C
I'm the king of the world,
F
I'm a popular man
Fadd9/A
count by zero's to ten,
Bbsus2
if you cant, well I can,
C
don't let any one wake me

[chorus]
F
I'm dreamin out loud,
Fadd9/A
dreamin out loud,
Bbsus2 C
and all at once its so familiar to see,
F
I'm dreamin out loud,
Fadd9/A
dreamin out loud,
Bbsus2 C D
can't find a puzzle to fit into piece a part of me

Dm Bbmaj7 Dm Bbmaj7 Dm Bbmaj7 G

[verse 2]
Dm Bbmaj7
Curtain calls a sanctuary,
Dm Bbmaj7 Dm
Actors in the cloth, they freak me out,
Bbmaj7 G
Mockin my purpose, in the magazines,
Dm Bbmaj7
Famous how they make you feel grand,
Dm Bbmaj7 Dm
they're always there to hold your hand,
Bbmaj7 G
in times of trouble, they're best of friends

F Fadd9/A
Break all my thoughts hit the floor,
Bbsus2
like I'm makin the score,
C
I'm the king of the world,
F
I'm a popular man
Fadd9/A
count by zero's to ten,
Bbsus2
if you cant, well I can,
C
don't let any one wake me

[chorus]
F
I'm dreamin out loud,
Fadd9/A
dreamin out loud,
Bbsus2 C
and all at once its so familiar to see,
F
I'm dreamin out loud,
Fadd9/A
dreamin out loud,
Bbsus2 C D
can't find a puzzle to fit into piece a part of me yeah

[bridge]
Bbmaj7 C6
they dont care what you say
Bbmaj7
they dont care what you think
C6
all they care, what you do,
Bbmaj7
long as you're of beat,
A7
take a look at yourself

F Fadd9/A Bbsus2
storm tries to come and wreck my world,
C
no I wont let it
F Fadd9/A Bbsus2 C
stumble to escape, through anchored drapes, made of bedding

F
I'm dreamin out loud,
Fadd9/A
dreamin out loud,
Bbsus2 C
and all at once its so familiar to see,
F
I'm dreamin out loud,
Fadd9/A
dreamin out loud,
Bbsus2 C
can't find a puzzle to fit into piece
F
I'm dreamin out loud,
Fadd9/A
out loud,
Bbsus2 C D
can't find a puzzle to fit into piece a part of me yeah

Dm Bbmaj7 Dm Bbmaj7 Dm G
well,hello sir we look for mondays

Добавлено (2009-12-23, 11:33 Am)
---------------------------------------------
All For You – Ryan Tedder
спс стараюсь для вас

Verse:
E|-----------------------------------------------------------|
B|----0—-0h1------0-1----------0—-0h1------0-1--------------- |
G|----0--0----0---0-0--0--0----0--0----0---0-0--0--0---------|
D|-----------------------------------------------------------|
A|--3---- 3------3------------0----0------0-------------------|
E|-----------------------------------------------------------|

E|----------------- ------------------------------------------|
B|----0—-0h1------0-1----------0—-0----1---1h3---------------|
G|----0--0----0---0-0--0--0---- 0--0----0---0-----------------|
D|-----------------------------------------------------------|
A|----------------------------------------- ------------------|
E|--1----1------1-------------3---3--------------------------| x2

*Note: there are some variations when he plays through it the 2nd time through*

Pre-chorus:
E|-----------------------------------------------------------|
B|----1—-1---1---1--1----------1—-1---------1--1--- ----------|
G|----2--2---2---2--2--2--0----0--0--0--0---0--0-------------|
D|-----------------------------------------------------------|
A |--0----------0---------------------------------------------|
E|----------------------------1------------1-----------------|

E|--------- --------------------------------------------------|
B|--1—-1--1---1--1--1---3--3--3---3--------------------------|
G|--0--0------0--0---0- -0--0------0--------------------------|
D|-----------------------------------------------------------|
A|--1--1----1-----------2--2----2-- --------------------------|
E|-----------------------------------------------------------|

Chorus:

E|-------------------------------- ---------------------------|
B|----3-3---------3-3---------1-1--------1—-1s3--------------|
G|----0-0--0-0----0-0--0-0----0-0--0-0---0—-0- ---------------|
D|-----------------------------------------------------------|
A|--3-----------2-----------0----------------------------- ---|
E|--------------------------------------1---1s3--------------| x2

(On the 2nd repeat, it changes around the end^ right there. Same notes, but just
plucking and hammering)

E|-----------------------------------------------------------|
B|---1—-1----3-------0-0h1—1h3-1-1---------------------------|
G|---0--0-0----------0-0-------------------------------------|
D|-----------------------------------------------------------|
A|--1---1- ---2------3--3-------------------------------------|
E|-----------------------------------------------------------|

Добавлено (2009-12-23, 11:36 Am)
---------------------------------------------
I Will Try - Ryan Tedder
INTRO:
e-----------0------x---0x---0h1(0)x---|
b----1---1h3------3x----x---------x---|
g----0------------0x---0x---0-----x---|
d------------------x----x---------x---|
a--0----0-------2--x---3x--3------x---|
e------------------x----x---------x---|

e-----------0------x------------------|
b----1---1h3- -----3x---0----1---1-----|
g----0------------0x---0----0---0-----|
d------------------x------------------|
a--0----0-------2--x---0----1---1-----|
e------------------x------------------|

Добавлено (2009-12-23, 5:38 Pm)
---------------------------------------------
Come Home"

Introduзгo: C C/B Am F7M

C
hello, world
C/B
hope you're listening
Am
forgive me if I’m young
F7M
or speaking out of turn
C C/B
but there’s someone that I’ve been missing
Am
and I think that they could be
F7M
the better half of me
Dm G
they’re in the wrong place tryin'to make it right
Dm G
and I'm tired of justifying
F/A C
so I say to you...

[chorus]
C/B
come home
F7M
come home
C
cause I’ve been waiting for ya
C/B
for so long
F7M
for so long
Am7 C/E
and right now there's a war between the vanities
F9
but all I see is you and me
C G
and the fight for you is all ive ever known
Am7 C Dm Am G
so come home

C C/B
I get lost in the beauty
Am
of everything I see
F7M
the world ain’t as half as bad

as they paint it to be
C
if all the sons
C/B
all the daughters
Am
stop to take it in
F7M Dm
well hopefully the hate subsides and the love can begin
G
it might start now
Dm G
or maybe I'm just dreaming out loud
F/A G/B C
but un- til then

C/B
come home
F7M
come home
C
cause I’ve been waiting for ya
C/B
for so long
F7M
for so long
Am7 C/E
and right now there's a war between the vanities
F9
but all I see is you and me
C G
and the fight for you is all I've ever known..ever known
F9 Am7 C Dm
so come home

F9
everything I can’t be
Am7
is everything you should be
C Dm
and that’s why I need you here
F9
everything I can’t be
Am7
is everything you should be
C G
and that’s why I need you here
C
so hear this now

C/B
come home
F7M
come home
C
cause I’ve been waiting for ya
C/B
for so long
F7M
for so long
Am7 C/E
and right now there's a war between the vanities
F9
but all I see is you and me
C G
and the fight for you is all ive ever known..ever known
Eb7M F9 C C/B Am F7M C7M
so come home come home

Добавлено (2009-12-26, 3:45 Pm)
---------------------------------------------
Secrets
E|------------------------------------------------------------------|
B|----------------------------------------------------------------- -|
G|-----2---2-----------2---2-----------2---2-----------2---2--------|
D|---4---4---4---4---4---4---4---4---4---4---4---4---4---4---4--- 4--|
A|-5-----------5---5-----------5---4-----------4---4-----------4----|
E|------------------------------------------------------------- -----|

E|------------------------------------------------------------------|
B|--------------------------------------------------------- ---------|
G|-----4---4-----------4---4-----------4---4------------------------|
D|---4---4---4---4---4---4---4---4---------------------5- --5--------|
A|-2-----------2---2-----------2-----5---5---5---5---5---5---5---5--|
E|---------------------------------3-----------3---3--- --------3----|

Intro:

D, F#m/C#, Bm, G

Verse 1
D
I need another story
F#m/C#
Something to get off my chest
Bm
My life gets kinda boring
G
Need something that I can confess

D
Til' all my sleeves are stained red
F#m/C#
From all the truth that I've said
Bm
Come by it honestly I swear
G
Thought you saw a wink, no

I've been on the brink, so

Chorus

D
Tell me what you want from here
F#m/C#
Something that were like those years
Bm
Sick of all the insincere
G
So I'm gonna give all my secrets away
D F#m/C#
This time, don't need another perfect line
Bm
Don't care if critics never jump in line
G
I'm gonna give all my secrets away

Verse 2

D F#m/C#
My god, amazing how we got this far
Bm
It's like we're chasing all those stars
G
Who's driving shiny big black cars

D
And everyday I see the news

All the problems that we could solve
F#m/C#
And when a situation rises

Just write it into an album
Bm
Singing straight, too cold
G
I don't really like my flow, no, so

Chorus |Same as above|

Tell me what you want from here
Something that were like those years
Sick of all the insincere
So I'm gonna give all my secrets away
This time, don't need another perfect line
Don't care if critics never jump in line
I'm gonna give all my secrets away

D, F#m/C#, Bm, G

Bridge
D F#m/C#
Oooh, got no reason, got not shame
Bm
Got no family I can blame
G
Just don't let me disappear

I'mma tell you everything

Chorus |Same as above|

So tell me what you want from here
Something that were like those years
Sick of all the insincere
So I'm gonna give all my secrets away
This time, don't need another perfect line
Don't care if critics never jump in line
I'm gonna give all my secrets away

So tell me what you want from here
Something that were like those years
Sick of all the insincere
So I'm gonna give all my secrets away
This time, don't need another perfect line
Don't care if critics never jump in line
I'm gonna give all my secrets away

All my secrets away, All my secrets away.

 
pupsikДата: Вторник, 2010-01-05, 12:32 PM | Сообщение # 28
Легенда
Группа: Администраторы
Сообщений: 12426
Статус: Offline
Награды:
Респект Модератору Монстр общения Гигант общения Респект за общительность Респект за Мега общительность Фанату 1R За верность форуму
FTorres9, спасибо, надеюсь теперь нашим "гитаристам" есть чем заняться. :D

All That I Am
 
FTorres9Дата: Среда, 2010-01-13, 7:31 PM | Сообщение # 29
Тень
Группа: Пользователи
Сообщений: 16
Статус: Offline
Награды:
не за что!!я сам гитарист !всё проиграно, проверено на 100 процентов !стараюсь для вас !

Добавлено (2010-01-13, 7:31 Pm)
---------------------------------------------
подабрал mаб к everybody love me!аккорды :С и F , припев :E G C и F!!
E|---------------------- ---------------------|
B|------------------------------------------- -|
G|---------------------------------------------|
D|---------------------------------------------|
A|-------------------9-------------- -----------|
E|-0-0-3---0-0-0---8------------------------|
последние 8 и 9 надо вниз припустить одновремено к 3 струне!
НАДЕЮСЬ ВЫ ОЦЕНЕТЕ МОИ СТАРАНИЯ!

Сообщение отредактировал FTorres9 - Среда, 2010-01-13, 7:46 PM
 
Оля-ляДата: Среда, 2010-01-13, 8:53 PM | Сообщение # 30
Легенда
Группа: Модераторы
Сообщений: 9857
Статус: Offline
Награды:
Респект Модератору Монстр общения Гигант общения Респект за общительность Респект за Мега общительность Фанату 1R За верность форуму
FTorres9, молодец!!! :)

Хронически влюблена.
 
Форум » One Republic » Творчество » Нотная тетрадь (Тема для музицирующих и мечтающих начать.)
Страница 2 из 5«12345»
Поиск:

Copyright MyCorp © 2017
Сделать бесплатный сайт с uCoz